Hallelujah Instrumental Download

  1. Leonard Cohen Hallelujah Instrumental Download
Piano

On the page for every carol, you can find a free mp3 file, a printable PDF with lyrics & sheet music for free download, a karaoke video, and much more. We Wish you a Merry Christmas. Winter Wonderland. Santa Claus is Coming to Town. Rudolph, the Red-nosed Reindeer. Joy to the world. Play full-length songs from Hallelujah: Instrumental Song by Instrumental Music Players on your phone, computer and home audio system with Napster. Discover Hallelujah Karaoke Backing Track as made famous by Alexandra Burke. Download the best MP3 Karaoke Songs on Karaoke Version. Instrumental Version MP3.

Easter

Leonard Cohen - Hallelujah instrumental electric guitar cover played by RockMilady
Amazing electric guitar instrumental arranged in standard tuning
Download the TAB under the video
ROCKMILADY HALLELUJAH TAB
GP5 + GP6 + PDF >>
Part 1
e-----------------------------------------------------------------------
B-----------------------------------------------------------------------
G-----------------------------------------------------------------------
D------5---------------5--5/7~-----------5~------------5--5-h7~---------
A---7---------------7-----------------7-------------7-------------------
E-----------------------------------------------------------------------
e-----------------------------------------------------------------------
B-----------------------------------------------------------------------
G-----------------------------------------------------------------------
D---5h7~----7~-------7--5h7p5~-----5-3-/5~-----------------------------
A-----------------------------------------------------------------------
E-----------------------------------------------------------------------
e-----------------------------------------------------------------------
B-----------------------------------------------------------------------
G-----------7(9).--7~---------------------------------------------------
D-------5.--------------------------------------------------------------
A---5h7-----------------------------------------------------------------
E-----------------------------------------------------------------------


e-----------------------------------------------------------------------
B-----------------------------------------------------------------------
G-----------------------------------------------------------------------
D---3/5~-----------5.--5h7~----7--7/9--7--9.--9-/10~--------------------
A---------------7-------------------------------------------------------
E-----------------------------------------------------------------------
e-----------------------------------------------------------------------
B-----------------------------------------------------------------------
G-----4h5--5/7~-------5h7-7~----------5h7-(9)--------(9)-(7)~----p5~----
D---7-------------------------------------------------------------------
A-----------------------------------------------------------------------
E-----------------------------------------------------------------------
etc ...



Leonard Cohen Hallelujah Instrumental Download


Leonard Cohen - Hallelujah instrumental electric guitar cover played by RockMilady
Amazing electric guitar instrumental arranged in standard tuning
Download the TAB under the video
ROCKMILADY HALLELUJAH TAB
GP5 + GP6 + PDF >>
Part 1
e-----------------------------------------------------------------------
B-----------------------------------------------------------------------
G-----------------------------------------------------------------------
D------5---------------5--5/7~-----------5~------------5--5-h7~---------
A---7---------------7-----------------7-------------7-------------------
E-----------------------------------------------------------------------
e-----------------------------------------------------------------------
B-----------------------------------------------------------------------
G-----------------------------------------------------------------------
D---5h7~----7~-------7--5h7p5~-----5-3-/5~-----------------------------
A-----------------------------------------------------------------------
E-----------------------------------------------------------------------
e-----------------------------------------------------------------------
B-----------------------------------------------------------------------
G-----------7(9).--7~---------------------------------------------------
D-------5.--------------------------------------------------------------
A---5h7-----------------------------------------------------------------
E-----------------------------------------------------------------------


e-----------------------------------------------------------------------
B-----------------------------------------------------------------------
G-----------------------------------------------------------------------
D---3/5~-----------5.--5h7~----7--7/9--7--9.--9-/10~--------------------
A---------------7-------------------------------------------------------
E-----------------------------------------------------------------------
e-----------------------------------------------------------------------
B-----------------------------------------------------------------------
G-----4h5--5/7~-------5h7-7~----------5h7-(9)--------(9)-(7)~----p5~----
D---7-------------------------------------------------------------------
A-----------------------------------------------------------------------
E-----------------------------------------------------------------------
etc ...